  0
SECTION
  2
HEADER
  9
$ACADVER
  1
AC1009
  9
$EXTMIN
 10
0.000000
 20
0.000000
 30
0.000000
  9
$EXTMAX
 10
0.000000
 20
0.000000
 30
0.000000
  9
$LIMMIN
 10
0.000000
 20
0.000000
  9
$LIMMAX
 10
0.000000
 20
0.000000
  9
$LTSCALE
 40
0.600000
  9
$ATTMODE
 70
1
  9
$FILLMODE
 70
1
  9
$TEXTSIZE
 40
1.200000
  9
$TEXTSTYLE
  7
STANDARD
  9
$CELTYPE
  6
BYLAYER
  9
$PLINEGEN
 70
1
  9
$CECOLOR
 62
0
  9
$LUNITS
 70
2
  9
$LUPREC
 70
3
  9
$AUPREC
 70
4
  9
$ANGBASE
 50
0.000000
  9
$ANGDIR
 70
0
  9
$PDMODE
 70
0
  9
$PDSIZE
 40
0.600000
  9
$PLINEGEN
 70
1
  9
$MEASUREMENT
 70
1
  0
ENDSEC
  0
SECTION
  2
TABLES
  0
TABLE
  2
LTYPE
 70
5
  0
LTYPE
  2
Solid_Line
 70
0
  3
Solid Line
 72
65
 73
0
 40
0.0
  0
LTYPE
  2
Dashed_Line
 70
0
  3
Dashed Line
 72
65
 73
2
 40
0.75
 49
0.50
 49
-0.25
  0
LTYPE
  2
Dotted_Line
 70
0
  3
Dotted Line
 72
65
 73
2
 40
0.25
 49
0.00
 49
-0.25
  0
LTYPE
  2
DashDot_Line
 70
0
  3
DashDot Line
 72
65
 73
4
 40
18.0
 49
12.0
 49
-3.0
 49
0.0
 49
-3.0
  0
LTYPE
  2
DashDotDot_Line
 70
0
  3
DashDotDot Line
 72
65
 73
6
 40
21.0
 49
12.0
 49
-3.0
 49
0.0 
 49
-3.0
 49
0.0 
 49
-3.0
  0
ENDTAB
  0
TABLE
  2
APPID
 70
2
  0
APPID
  2
PE_URL
 70
0
  0
ENDTAB
  0
ENDSEC
  0
SECTION
  2
BLOCKS
  0
BLOCK
  2
Adjusted
 70
64
 10
0.000000
 20
0.000000
 30
0.000000
  3
Adjusted
  0
LINE
  8
0
 62
0
  6
Solid_Line
 10
0.000000
 20
0.600000
 11
0.423600
 21
-0.423600
  0
LINE
  8
0
 62
0
  6
Solid_Line
 10
0.423600
 20
-0.423600
 11
-0.423600
 21
-0.423600
  0
LINE
  8
0
 62
0
  6
Solid_Line
 10
-0.423600
 20
-0.423600
 11
0.000000
 21
0.600000
  0
ARC
  8
0
 62
0
  6
Solid_Line
 10
-0.000000
 20
-0.000000
 40
0.600000
 50
0.000000
 51
180.000000
  0
ARC
  8
0
 62
0
  6
Solid_Line
 10
-0.000000
 20
0.000000
 40
0.600000
 50
180.000000
 51
0.000000
  0
ENDBLK
  0
BLOCK
  2
Averaged
 70
64
 10
0.000000
 20
0.000000
 30
0.000000
  3
Averaged
  0
POINT
  8
0
 62
0
  6
Solid_Line
 10
0.000000
 20
0.000000
 30
0.000000
  0
ARC
  8
0
 62
0
  6
Solid_Line
 10
-0.000000
 20
-0.000000
 40
0.600000
 50
0.000000
 51
180.000000
  0
ARC
  8
0
 62
0
  6
Solid_Line
 10
-0.000000
 20
0.000000
 40
0.600000
 50
180.000000
 51
0.000000
  0
ARC
  8
0
 62
0
  6
Solid_Line
 10
-0.000000
 20
-0.000000
 40
0.300000
 50
0.000000
 51
180.000000
  0
ARC
  8
0
 62
0
  6
Solid_Line
 10
-0.000000
 20
0.000000
 40
0.300000
 50
180.000000
 51
0.000000
  0
ENDBLK
  0
BLOCK
  2
Control
 70
64
 10
0.000000
 20
0.000000
 30
0.000000
  3
Control
  0
LINE
  8
0
 62
0
  6
Solid_Line
 10
0.000000
 20
0.600000
 11
0.600000
 21
-0.600000
  0
LINE
  8
0
 62
0
  6
Solid_Line
 10
0.600000
 20
-0.600000
 11
-0.600000
 21
-0.600000
  0
LINE
  8
0
 62
0
  6
Solid_Line
 10
-0.600000
 20
-0.600000
 11
0.000000
 21
0.600000
  0
ENDBLK
  0
BLOCK
  2
Estimated
 70
64
 10
0.000000
 20
0.000000
 30
0.000000
  3
Estimated
  0
LINE
  8
0
 62
0
  6
Solid_Line
 10
-0.600000
 20
0.000000
 11
0.600000
 21
0.000000
  0
LINE
  8
0
 62
0
  6
Solid_Line
 10
0.000000
 20
-0.600000
 11
0.000000
 21
0.600000
  0
ENDBLK
  0
BLOCK
  2
Indefined
 70
64
 10
0.000000
 20
0.000000
 30
0.000000
  3
Indefined
  0
ARC
  8
0
 62
0
  6
Solid_Line
 10
0.000000
 20
0.000000
 40
0.300000
 50
0.000000
 51
180.000000
  0
ARC
  8
0
 62
0
  6
Solid_Line
 10
0.000000
 20
0.000000
 40
0.300000
 50
180.000000
 51
0.000000
  0
LINE
  8
0
 62
0
  6
Solid_Line
 10
0.213000
 20
0.213000
 11
0.600000
 21
0.600000
  0
LINE
  8
0
 62
0
  6
Solid_Line
 10
0.213000
 20
-0.213000
 11
0.600000
 21
-0.600000
  0
LINE
  8
0
 62
0
  6
Solid_Line
 10
-0.213000
 20
-0.213000
 11
-0.600000
 21
-0.600000
  0
LINE
  8
0
 62
0
  6
Solid_Line
 10
-0.213000
 20
0.213000
 11
-0.600000
 21
0.600000
  0
ENDBLK
  0
BLOCK
  2
Measured
 70
64
 10
0.000000
 20
0.000000
 30
0.000000
  3
Measured
  0
POINT
  8
0
 62
0
  6
Solid_Line
 10
0.000000
 20
0.000000
 30
0.000000
  0
ARC
  8
0
 62
0
  6
Solid_Line
 10
-0.000000
 20
-0.000000
 40
0.600000
 50
0.000000
 51
180.000000
  0
ARC
  8
0
 62
0
  6
Solid_Line
 10
-0.000000
 20
0.000000
 40
0.600000
 50
180.000000
 51
0.000000
  0
ENDBLK
  0
BLOCK
  2
Navigated
 70
64
 10
0.000000
 20
0.000000
 30
0.000000
  3
Navigated
  0
POINT
  8
0
 62
0
  6
Solid_Line
 10
0.000000
 20
0.000000
 30
0.000000
  0
LINE
  8
0
 62
0
  6
Solid_Line
 10
-0.600000
 20
0.600000
 11
0.600000
 21
0.600000
  0
LINE
  8
0
 62
0
  6
Solid_Line
 10
0.600000
 20
0.600000
 11
0.600000
 21
-0.600000
  0
LINE
  8
0
 62
0
  6
Solid_Line
 10
0.600000
 20
-0.600000
 11
-0.600000
 21
-0.600000
  0
LINE
  8
0
 62
0
  6
Solid_Line
 10
-0.600000
 20
-0.600000
 11
-0.600000
 21
0.600000
  0
ENDBLK
  0
BLOCK
  2
Reference
 70
64
 10
0.000000
 20
0.000000
 30
0.000000
  3
Reference
  0
LINE
  8
0
 62
0
  6
Solid_Line
 10
0.000000
 20
-0.600000
 11
0.600000
 21
0.600000
  0
LINE
  8
0
 62
0
  6
Solid_Line
 10
0.600000
 20
0.600000
 11
-0.600000
 21
0.600000
  0
LINE
  8
0
 62
0
  6
Solid_Line
 10
-0.600000
 20
0.600000
 11
0.000000
 21
-0.600000
  0
ENDBLK
  0
ENDSEC
  0
SECTION
  2
ENTITIES
  0
INSERT
  2
Measured
  8
0
 62
0
  6
Solid_Line
 10
504345.875434
 20
4589285.455409
 30
292.340573
  0
TEXT
 10
504345.275434
 20
4589286.055409
 30
292.340573
  8
Point_ID
 62
5
  6
Solid_Line
 40
1.800000
  1
shenoba 57
 50
0.000000
 72
2
 73
0
 11
504345.275434
 21
4589286.055409
 31
292.340573
  0
TEXT
 10
504346.475434
 20
4589284.855409
 30
292.340573
  8
Height
 62
0
  6
Solid_Line
 40
1.800000
  1
292.34
 50
0.000000
 72
0
 73
3
 11
504346.475434
 21
4589284.855409
 31
292.340573
  0
TEXT
 10
504345.275434
 20
4589284.855409
 30
292.340573
  8
Point_Code
 62
5
  6
Solid_Line
 40
1.800000
  1

 50
0.000000
 72
2
 73
3
 11
504345.275434
 21
4589284.855409
 31
292.340573
  0
TEXT
 10
504345.275434
 20
4589281.855409
 30
292.340573
  8
Attribute
 62
5
  6
Solid_Line
 40
1.800000
  1

 50
0.000000
 72
2
 73
3
 11
504345.275434
 21
4589281.855409
 31
292.340573
  0
INSERT
  2
Measured
  8
0
 62
0
  6
Solid_Line
 10
504370.110394
 20
4589282.313659
 30
292.707789
  0
TEXT
 10
504369.510394
 20
4589282.913659
 30
292.707789
  8
Point_ID
 62
5
  6
Solid_Line
 40
1.800000
  1
shenoba 56
 50
0.000000
 72
2
 73
0
 11
504369.510394
 21
4589282.913659
 31
292.707789
  0
TEXT
 10
504370.710394
 20
4589281.713659
 30
292.707789
  8
Height
 62
0
  6
Solid_Line
 40
1.800000
  1
292.71
 50
0.000000
 72
0
 73
3
 11
504370.710394
 21
4589281.713659
 31
292.707789
  0
TEXT
 10
504369.510394
 20
4589281.713659
 30
292.707789
  8
Point_Code
 62
5
  6
Solid_Line
 40
1.800000
  1

 50
0.000000
 72
2
 73
3
 11
504369.510394
 21
4589281.713659
 31
292.707789
  0
TEXT
 10
504369.510394
 20
4589278.713659
 30
292.707789
  8
Attribute
 62
5
  6
Solid_Line
 40
1.800000
  1

 50
0.000000
 72
2
 73
3
 11
504369.510394
 21
4589278.713659
 31
292.707789
  0
INSERT
  2
Measured
  8
0
 62
0
  6
Solid_Line
 10
504369.948654
 20
4589280.865023
 30
292.742825
  0
TEXT
 10
504369.348654
 20
4589281.465023
 30
292.742825
  8
Point_ID
 62
5
  6
Solid_Line
 40
1.800000
  1
shenoba 55
 50
0.000000
 72
2
 73
0
 11
504369.348654
 21
4589281.465023
 31
292.742825
  0
TEXT
 10
504370.548654
 20
4589280.265023
 30
292.742825
  8
Height
 62
0
  6
Solid_Line
 40
1.800000
  1
292.74
 50
0.000000
 72
0
 73
3
 11
504370.548654
 21
4589280.265023
 31
292.742825
  0
TEXT
 10
504369.348654
 20
4589280.265023
 30
292.742825
  8
Point_Code
 62
5
  6
Solid_Line
 40
1.800000
  1

 50
0.000000
 72
2
 73
3
 11
504369.348654
 21
4589280.265023
 31
292.742825
  0
TEXT
 10
504369.348654
 20
4589277.265023
 30
292.742825
  8
Attribute
 62
5
  6
Solid_Line
 40
1.800000
  1

 50
0.000000
 72
2
 73
3
 11
504369.348654
 21
4589277.265023
 31
292.742825
  0
INSERT
  2
Measured
  8
0
 62
0
  6
Solid_Line
 10
504377.279470
 20
4589279.915897
 30
292.684762
  0
TEXT
 10
504376.679470
 20
4589280.515897
 30
292.684762
  8
Point_ID
 62
5
  6
Solid_Line
 40
1.800000
  1
shenoba 54
 50
0.000000
 72
2
 73
0
 11
504376.679470
 21
4589280.515897
 31
292.684762
  0
TEXT
 10
504377.879470
 20
4589279.315897
 30
292.684762
  8
Height
 62
0
  6
Solid_Line
 40
1.800000
  1
292.68
 50
0.000000
 72
0
 73
3
 11
504377.879470
 21
4589279.315897
 31
292.684762
  0
TEXT
 10
504376.679470
 20
4589279.315897
 30
292.684762
  8
Point_Code
 62
5
  6
Solid_Line
 40
1.800000
  1

 50
0.000000
 72
2
 73
3
 11
504376.679470
 21
4589279.315897
 31
292.684762
  0
TEXT
 10
504376.679470
 20
4589276.315897
 30
292.684762
  8
Attribute
 62
5
  6
Solid_Line
 40
1.800000
  1

 50
0.000000
 72
2
 73
3
 11
504376.679470
 21
4589276.315897
 31
292.684762
  0
INSERT
  2
Measured
  8
0
 62
0
  6
Solid_Line
 10
504375.499455
 20
4589265.323851
 30
292.619600
  0
TEXT
 10
504374.899455
 20
4589265.923851
 30
292.619600
  8
Point_ID
 62
5
  6
Solid_Line
 40
1.800000
  1
shenoba 53
 50
0.000000
 72
2
 73
0
 11
504374.899455
 21
4589265.923851
 31
292.619600
  0
TEXT
 10
504376.099455
 20
4589264.723851
 30
292.619600
  8
Height
 62
0
  6
Solid_Line
 40
1.800000
  1
292.62
 50
0.000000
 72
0
 73
3
 11
504376.099455
 21
4589264.723851
 31
292.619600
  0
TEXT
 10
504374.899455
 20
4589264.723851
 30
292.619600
  8
Point_Code
 62
5
  6
Solid_Line
 40
1.800000
  1

 50
0.000000
 72
2
 73
3
 11
504374.899455
 21
4589264.723851
 31
292.619600
  0
TEXT
 10
504374.899455
 20
4589261.723851
 30
292.619600
  8
Attribute
 62
5
  6
Solid_Line
 40
1.800000
  1

 50
0.000000
 72
2
 73
3
 11
504374.899455
 21
4589261.723851
 31
292.619600
  0
INSERT
  2
Measured
  8
0
 62
0
  6
Solid_Line
 10
504349.937548
 20
4589268.515558
 30
292.614982
  0
TEXT
 10
504349.337548
 20
4589269.115558
 30
292.614982
  8
Point_ID
 62
5
  6
Solid_Line
 40
1.800000
  1
shenoba 52
 50
0.000000
 72
2
 73
0
 11
504349.337548
 21
4589269.115558
 31
292.614982
  0
TEXT
 10
504350.537548
 20
4589267.915558
 30
292.614982
  8
Height
 62
0
  6
Solid_Line
 40
1.800000
  1
292.61
 50
0.000000
 72
0
 73
3
 11
504350.537548
 21
4589267.915558
 31
292.614982
  0
TEXT
 10
504349.337548
 20
4589267.915558
 30
292.614982
  8
Point_Code
 62
5
  6
Solid_Line
 40
1.800000
  1

 50
0.000000
 72
2
 73
3
 11
504349.337548
 21
4589267.915558
 31
292.614982
  0
TEXT
 10
504349.337548
 20
4589264.915558
 30
292.614982
  8
Attribute
 62
5
  6
Solid_Line
 40
1.800000
  1

 50
0.000000
 72
2
 73
3
 11
504349.337548
 21
4589264.915558
 31
292.614982
  0
INSERT
  2
Measured
  8
0
 62
0
  6
Solid_Line
 10
504350.026490
 20
4589269.373244
 30
292.591203
  0
TEXT
 10
504349.426490
 20
4589269.973244
 30
292.591203
  8
Point_ID
 62
5
  6
Solid_Line
 40
1.800000
  1
shenoba 51
 50
0.000000
 72
2
 73
0
 11
504349.426490
 21
4589269.973244
 31
292.591203
  0
TEXT
 10
504350.626490
 20
4589268.773244
 30
292.591203
  8
Height
 62
0
  6
Solid_Line
 40
1.800000
  1
292.59
 50
0.000000
 72
0
 73
3
 11
504350.626490
 21
4589268.773244
 31
292.591203
  0
TEXT
 10
504349.426490
 20
4589268.773244
 30
292.591203
  8
Point_Code
 62
5
  6
Solid_Line
 40
1.800000
  1

 50
0.000000
 72
2
 73
3
 11
504349.426490
 21
4589268.773244
 31
292.591203
  0
TEXT
 10
504349.426490
 20
4589265.773244
 30
292.591203
  8
Attribute
 62
5
  6
Solid_Line
 40
1.800000
  1

 50
0.000000
 72
2
 73
3
 11
504349.426490
 21
4589265.773244
 31
292.591203
  0
INSERT
  2
Measured
  8
0
 62
0
  6
Solid_Line
 10
504344.010636
 20
4589270.242302
 30
292.444092
  0
TEXT
 10
504343.410636
 20
4589270.842302
 30
292.444092
  8
Point_ID
 62
5
  6
Solid_Line
 40
1.800000
  1
shenoba 50
 50
0.000000
 72
2
 73
0
 11
504343.410636
 21
4589270.842302
 31
292.444092
  0
TEXT
 10
504344.610636
 20
4589269.642302
 30
292.444092
  8
Height
 62
0
  6
Solid_Line
 40
1.800000
  1
292.44
 50
0.000000
 72
0
 73
3
 11
504344.610636
 21
4589269.642302
 31
292.444092
  0
TEXT
 10
504343.410636
 20
4589269.642302
 30
292.444092
  8
Point_Code
 62
5
  6
Solid_Line
 40
1.800000
  1

 50
0.000000
 72
2
 73
3
 11
504343.410636
 21
4589269.642302
 31
292.444092
  0
TEXT
 10
504343.410636
 20
4589266.642302
 30
292.444092
  8
Attribute
 62
5
  6
Solid_Line
 40
1.800000
  1

 50
0.000000
 72
2
 73
3
 11
504343.410636
 21
4589266.642302
 31
292.444092
  0
INSERT
  2
Measured
  8
0
 62
0
  6
Solid_Line
 10
504323.594189
 20
4589253.401301
 30
292.151356
  0
TEXT
 10
504322.994189
 20
4589254.001301
 30
292.151356
  8
Point_ID
 62
5
  6
Solid_Line
 40
1.800000
  1
shenoba 49
 50
0.000000
 72
2
 73
0
 11
504322.994189
 21
4589254.001301
 31
292.151356
  0
TEXT
 10
504324.194189
 20
4589252.801301
 30
292.151356
  8
Height
 62
0
  6
Solid_Line
 40
1.800000
  1
292.15
 50
0.000000
 72
0
 73
3
 11
504324.194189
 21
4589252.801301
 31
292.151356
  0
TEXT
 10
504322.994189
 20
4589252.801301
 30
292.151356
  8
Point_Code
 62
5
  6
Solid_Line
 40
1.800000
  1

 50
0.000000
 72
2
 73
3
 11
504322.994189
 21
4589252.801301
 31
292.151356
  0
TEXT
 10
504322.994189
 20
4589249.801301
 30
292.151356
  8
Attribute
 62
5
  6
Solid_Line
 40
1.800000
  1

 50
0.000000
 72
2
 73
3
 11
504322.994189
 21
4589249.801301
 31
292.151356
  0
INSERT
  2
Measured
  8
0
 62
0
  6
Solid_Line
 10
504321.856698
 20
4589238.457280
 30
292.192833
  0
TEXT
 10
504321.256698
 20
4589239.057280
 30
292.192833
  8
Point_ID
 62
5
  6
Solid_Line
 40
1.800000
  1
shenoba 48
 50
0.000000
 72
2
 73
0
 11
504321.256698
 21
4589239.057280
 31
292.192833
  0
TEXT
 10
504322.456698
 20
4589237.857280
 30
292.192833
  8
Height
 62
0
  6
Solid_Line
 40
1.800000
  1
292.19
 50
0.000000
 72
0
 73
3
 11
504322.456698
 21
4589237.857280
 31
292.192833
  0
TEXT
 10
504321.256698
 20
4589237.857280
 30
292.192833
  8
Point_Code
 62
5
  6
Solid_Line
 40
1.800000
  1

 50
0.000000
 72
2
 73
3
 11
504321.256698
 21
4589237.857280
 31
292.192833
  0
TEXT
 10
504321.256698
 20
4589234.857280
 30
292.192833
  8
Attribute
 62
5
  6
Solid_Line
 40
1.800000
  1

 50
0.000000
 72
2
 73
3
 11
504321.256698
 21
4589234.857280
 31
292.192833
  0
INSERT
  2
Measured
  8
0
 62
0
  6
Solid_Line
 10
504359.345243
 20
4589233.761835
 30
292.280662
  0
TEXT
 10
504358.745243
 20
4589234.361835
 30
292.280662
  8
Point_ID
 62
5
  6
Solid_Line
 40
1.800000
  1
shenoba 47
 50
0.000000
 72
2
 73
0
 11
504358.745243
 21
4589234.361835
 31
292.280662
  0
TEXT
 10
504359.945243
 20
4589233.161835
 30
292.280662
  8
Height
 62
0
  6
Solid_Line
 40
1.800000
  1
292.28
 50
0.000000
 72
0
 73
3
 11
504359.945243
 21
4589233.161835
 31
292.280662
  0
TEXT
 10
504358.745243
 20
4589233.161835
 30
292.280662
  8
Point_Code
 62
5
  6
Solid_Line
 40
1.800000
  1

 50
0.000000
 72
2
 73
3
 11
504358.745243
 21
4589233.161835
 31
292.280662
  0
TEXT
 10
504358.745243
 20
4589230.161835
 30
292.280662
  8
Attribute
 62
5
  6
Solid_Line
 40
1.800000
  1

 50
0.000000
 72
2
 73
3
 11
504358.745243
 21
4589230.161835
 31
292.280662
  0
INSERT
  2
Measured
  8
0
 62
0
  6
Solid_Line
 10
504361.120548
 20
4589248.829484
 30
292.291934
  0
TEXT
 10
504360.520548
 20
4589249.429484
 30
292.291934
  8
Point_ID
 62
5
  6
Solid_Line
 40
1.800000
  1
shenoba 46
 50
0.000000
 72
2
 73
0
 11
504360.520548
 21
4589249.429484
 31
292.291934
  0
TEXT
 10
504361.720548
 20
4589248.229484
 30
292.291934
  8
Height
 62
0
  6
Solid_Line
 40
1.800000
  1
292.29
 50
0.000000
 72
0
 73
3
 11
504361.720548
 21
4589248.229484
 31
292.291934
  0
TEXT
 10
504360.520548
 20
4589248.229484
 30
292.291934
  8
Point_Code
 62
5
  6
Solid_Line
 40
1.800000
  1

 50
0.000000
 72
2
 73
3
 11
504360.520548
 21
4589248.229484
 31
292.291934
  0
TEXT
 10
504360.520548
 20
4589245.229484
 30
292.291934
  8
Attribute
 62
5
  6
Solid_Line
 40
1.800000
  1

 50
0.000000
 72
2
 73
3
 11
504360.520548
 21
4589245.229484
 31
292.291934
  0
INSERT
  2
Measured
  8
0
 62
0
  6
Solid_Line
 10
504354.499400
 20
4589212.721089
 30
292.106749
  0
TEXT
 10
504353.899400
 20
4589213.321089
 30
292.106749
  8
Point_ID
 62
5
  6
Solid_Line
 40
1.800000
  1
saproeq.bodzi 45
 50
0.000000
 72
2
 73
0
 11
504353.899400
 21
4589213.321089
 31
292.106749
  0
TEXT
 10
504355.099400
 20
4589212.121089
 30
292.106749
  8
Height
 62
0
  6
Solid_Line
 40
1.800000
  1
292.11
 50
0.000000
 72
0
 73
3
 11
504355.099400
 21
4589212.121089
 31
292.106749
  0
TEXT
 10
504353.899400
 20
4589212.121089
 30
292.106749
  8
Point_Code
 62
5
  6
Solid_Line
 40
1.800000
  1

 50
0.000000
 72
2
 73
3
 11
504353.899400
 21
4589212.121089
 31
292.106749
  0
TEXT
 10
504353.899400
 20
4589209.121089
 30
292.106749
  8
Attribute
 62
5
  6
Solid_Line
 40
1.800000
  1

 50
0.000000
 72
2
 73
3
 11
504353.899400
 21
4589209.121089
 31
292.106749
  0
INSERT
  2
Measured
  8
0
 62
0
  6
Solid_Line
 10
504387.438720
 20
4589260.012330
 30
292.649891
  0
TEXT
 10
504386.838720
 20
4589260.612330
 30
292.649891
  8
Point_ID
 62
5
  6
Solid_Line
 40
1.800000
  1
saproeq.bodzi 44
 50
0.000000
 72
2
 73
0
 11
504386.838720
 21
4589260.612330
 31
292.649891
  0
TEXT
 10
504388.038720
 20
4589259.412330
 30
292.649891
  8
Height
 62
0
  6
Solid_Line
 40
1.800000
  1
292.65
 50
0.000000
 72
0
 73
3
 11
504388.038720
 21
4589259.412330
 31
292.649891
  0
TEXT
 10
504386.838720
 20
4589259.412330
 30
292.649891
  8
Point_Code
 62
5
  6
Solid_Line
 40
1.800000
  1

 50
0.000000
 72
2
 73
3
 11
504386.838720
 21
4589259.412330
 31
292.649891
  0
TEXT
 10
504386.838720
 20
4589256.412330
 30
292.649891
  8
Attribute
 62
5
  6
Solid_Line
 40
1.800000
  1

 50
0.000000
 72
2
 73
3
 11
504386.838720
 21
4589256.412330
 31
292.649891
  0
INSERT
  2
Measured
  8
0
 62
0
  6
Solid_Line
 10
504335.858365
 20
4589269.643296
 30
292.119372
  0
TEXT
 10
504335.258365
 20
4589270.243296
 30
292.119372
  8
Point_ID
 62
5
  6
Solid_Line
 40
1.800000
  1
saproeq.bodzi 43
 50
0.000000
 72
2
 73
0
 11
504335.258365
 21
4589270.243296
 31
292.119372
  0
TEXT
 10
504336.458365
 20
4589269.043296
 30
292.119372
  8
Height
 62
0
  6
Solid_Line
 40
1.800000
  1
292.12
 50
0.000000
 72
0
 73
3
 11
504336.458365
 21
4589269.043296
 31
292.119372
  0
TEXT
 10
504335.258365
 20
4589269.043296
 30
292.119372
  8
Point_Code
 62
5
  6
Solid_Line
 40
1.800000
  1

 50
0.000000
 72
2
 73
3
 11
504335.258365
 21
4589269.043296
 31
292.119372
  0
TEXT
 10
504335.258365
 20
4589266.043296
 30
292.119372
  8
Attribute
 62
5
  6
Solid_Line
 40
1.800000
  1

 50
0.000000
 72
2
 73
3
 11
504335.258365
 21
4589266.043296
 31
292.119372
  0
INSERT
  2
Measured
  8
0
 62
0
  6
Solid_Line
 10
504354.806890
 20
4589316.548322
 30
292.607440
  0
TEXT
 10
504354.206890
 20
4589317.148322
 30
292.607440
  8
Point_ID
 62
5
  6
Solid_Line
 40
1.800000
  1
saproeq.bodzi 42
 50
0.000000
 72
2
 73
0
 11
504354.206890
 21
4589317.148322
 31
292.607440
  0
TEXT
 10
504355.406890
 20
4589315.948322
 30
292.607440
  8
Height
 62
0
  6
Solid_Line
 40
1.800000
  1
292.61
 50
0.000000
 72
0
 73
3
 11
504355.406890
 21
4589315.948322
 31
292.607440
  0
TEXT
 10
504354.206890
 20
4589315.948322
 30
292.607440
  8
Point_Code
 62
5
  6
Solid_Line
 40
1.800000
  1

 50
0.000000
 72
2
 73
3
 11
504354.206890
 21
4589315.948322
 31
292.607440
  0
TEXT
 10
504354.206890
 20
4589312.948322
 30
292.607440
  8
Attribute
 62
5
  6
Solid_Line
 40
1.800000
  1

 50
0.000000
 72
2
 73
3
 11
504354.206890
 21
4589312.948322
 31
292.607440
  0
INSERT
  2
Measured
  8
0
 62
0
  6
Solid_Line
 10
504317.040418
 20
4589324.140361
 30
293.053701
  0
TEXT
 10
504316.440418
 20
4589324.740361
 30
293.053701
  8
Point_ID
 62
5
  6
Solid_Line
 40
1.800000
  1
ganateb.bodzi 41
 50
0.000000
 72
2
 73
0
 11
504316.440418
 21
4589324.740361
 31
293.053701
  0
TEXT
 10
504317.640418
 20
4589323.540361
 30
293.053701
  8
Height
 62
0
  6
Solid_Line
 40
1.800000
  1
293.05
 50
0.000000
 72
0
 73
3
 11
504317.640418
 21
4589323.540361
 31
293.053701
  0
TEXT
 10
504316.440418
 20
4589323.540361
 30
293.053701
  8
Point_Code
 62
5
  6
Solid_Line
 40
1.800000
  1

 50
0.000000
 72
2
 73
3
 11
504316.440418
 21
4589323.540361
 31
293.053701
  0
TEXT
 10
504316.440418
 20
4589320.540361
 30
293.053701
  8
Attribute
 62
5
  6
Solid_Line
 40
1.800000
  1

 50
0.000000
 72
2
 73
3
 11
504316.440418
 21
4589320.540361
 31
293.053701
  0
INSERT
  2
Measured
  8
0
 62
0
  6
Solid_Line
 10
504314.162206
 20
4589291.652315
 30
292.779830
  0
TEXT
 10
504313.562206
 20
4589292.252315
 30
292.779830
  8
Point_ID
 62
5
  6
Solid_Line
 40
1.800000
  1
ganateb.bodzi 40
 50
0.000000
 72
2
 73
0
 11
504313.562206
 21
4589292.252315
 31
292.779830
  0
TEXT
 10
504314.762206
 20
4589291.052315
 30
292.779830
  8
Height
 62
0
  6
Solid_Line
 40
1.800000
  1
292.78
 50
0.000000
 72
0
 73
3
 11
504314.762206
 21
4589291.052315
 31
292.779830
  0
TEXT
 10
504313.562206
 20
4589291.052315
 30
292.779830
  8
Point_Code
 62
5
  6
Solid_Line
 40
1.800000
  1

 50
0.000000
 72
2
 73
3
 11
504313.562206
 21
4589291.052315
 31
292.779830
  0
TEXT
 10
504313.562206
 20
4589288.052315
 30
292.779830
  8
Attribute
 62
5
  6
Solid_Line
 40
1.800000
  1

 50
0.000000
 72
2
 73
3
 11
504313.562206
 21
4589288.052315
 31
292.779830
  0
INSERT
  2
Measured
  8
0
 62
0
  6
Solid_Line
 10
504311.356238
 20
4589256.624437
 30
292.590618
  0
TEXT
 10
504310.756238
 20
4589257.224437
 30
292.590618
  8
Point_ID
 62
5
  6
Solid_Line
 40
1.800000
  1
ganateb.bodzi 39
 50
0.000000
 72
2
 73
0
 11
504310.756238
 21
4589257.224437
 31
292.590618
  0
TEXT
 10
504311.956238
 20
4589256.024437
 30
292.590618
  8
Height
 62
0
  6
Solid_Line
 40
1.800000
  1
292.59
 50
0.000000
 72
0
 73
3
 11
504311.956238
 21
4589256.024437
 31
292.590618
  0
TEXT
 10
504310.756238
 20
4589256.024437
 30
292.590618
  8
Point_Code
 62
5
  6
Solid_Line
 40
1.800000
  1

 50
0.000000
 72
2
 73
3
 11
504310.756238
 21
4589256.024437
 31
292.590618
  0
TEXT
 10
504310.756238
 20
4589253.024437
 30
292.590618
  8
Attribute
 62
5
  6
Solid_Line
 40
1.800000
  1

 50
0.000000
 72
2
 73
3
 11
504310.756238
 21
4589253.024437
 31
292.590618
  0
INSERT
  2
Measured
  8
0
 62
0
  6
Solid_Line
 10
504308.196012
 20
4589226.944665
 30
292.523247
  0
TEXT
 10
504307.596012
 20
4589227.544665
 30
292.523247
  8
Point_ID
 62
5
  6
Solid_Line
 40
1.800000
  1
ganateb.bodzi 38
 50
0.000000
 72
2
 73
0
 11
504307.596012
 21
4589227.544665
 31
292.523247
  0
TEXT
 10
504308.796012
 20
4589226.344665
 30
292.523247
  8
Height
 62
0
  6
Solid_Line
 40
1.800000
  1
292.52
 50
0.000000
 72
0
 73
3
 11
504308.796012
 21
4589226.344665
 31
292.523247
  0
TEXT
 10
504307.596012
 20
4589226.344665
 30
292.523247
  8
Point_Code
 62
5
  6
Solid_Line
 40
1.800000
  1

 50
0.000000
 72
2
 73
3
 11
504307.596012
 21
4589226.344665
 31
292.523247
  0
TEXT
 10
504307.596012
 20
4589223.344665
 30
292.523247
  8
Attribute
 62
5
  6
Solid_Line
 40
1.800000
  1

 50
0.000000
 72
2
 73
3
 11
504307.596012
 21
4589223.344665
 31
292.523247
  0
INSERT
  2
Reference
  8
0
 62
0
  6
Solid_Line
 10
483969.642478
 20
4616753.316678
 30
419.477416
  0
TEXT
 10
483969.042478
 20
4616753.916678
 30
419.477416
  8
Point_ID
 62
5
  6
Solid_Line
 40
1.800000
  1
RTCM-Ref 0000
 50
0.000000
 72
2
 73
0
 11
483969.042478
 21
4616753.916678
 31
419.477416
  0
TEXT
 10
483970.242478
 20
4616752.716678
 30
419.477416
  8
Height
 62
0
  6
Solid_Line
 40
1.800000
  1
419.48
 50
0.000000
 72
0
 73
3
 11
483970.242478
 21
4616752.716678
 31
419.477416
  0
TEXT
 10
483969.042478
 20
4616752.716678
 30
419.477416
  8
Point_Code
 62
5
  6
Solid_Line
 40
1.800000
  1

 50
0.000000
 72
2
 73
3
 11
483969.042478
 21
4616752.716678
 31
419.477416
  0
TEXT
 10
483969.042478
 20
4616749.716678
 30
419.477416
  8
Attribute
 62
5
  6
Solid_Line
 40
1.800000
  1

 50
0.000000
 72
2
 73
3
 11
483969.042478
 21
4616749.716678
 31
419.477416
  0
INSERT
  2
Measured
  8
0
 62
0
  6
Solid_Line
 10
504305.332330
 20
4589195.998959
 30
292.622360
  0
TEXT
 10
504304.732330
 20
4589196.598959
 30
292.622360
  8
Point_ID
 62
5
  6
Solid_Line
 40
1.800000
  1
ganateb.bodzi 37
 50
0.000000
 72
2
 73
0
 11
504304.732330
 21
4589196.598959
 31
292.622360
  0
TEXT
 10
504305.932330
 20
4589195.398959
 30
292.622360
  8
Height
 62
0
  6
Solid_Line
 40
1.800000
  1
292.62
 50
0.000000
 72
0
 73
3
 11
504305.932330
 21
4589195.398959
 31
292.622360
  0
TEXT
 10
504304.732330
 20
4589195.398959
 30
292.622360
  8
Point_Code
 62
5
  6
Solid_Line
 40
1.800000
  1

 50
0.000000
 72
2
 73
3
 11
504304.732330
 21
4589195.398959
 31
292.622360
  0
TEXT
 10
504304.732330
 20
4589192.398959
 30
292.622360
  8
Attribute
 62
5
  6
Solid_Line
 40
1.800000
  1

 50
0.000000
 72
2
 73
3
 11
504304.732330
 21
4589192.398959
 31
292.622360
  0
INSERT
  2
Measured
  8
0
 62
0
  6
Solid_Line
 10
504304.653097
 20
4589196.240253
 30
292.492361
  0
TEXT
 10
504304.053097
 20
4589196.840253
 30
292.492361
  8
Point_ID
 62
5
  6
Solid_Line
 40
1.800000
  1
balasti 36
 50
0.000000
 72
2
 73
0
 11
504304.053097
 21
4589196.840253
 31
292.492361
  0
TEXT
 10
504305.253097
 20
4589195.640253
 30
292.492361
  8
Height
 62
0
  6
Solid_Line
 40
1.800000
  1
292.49
 50
0.000000
 72
0
 73
3
 11
504305.253097
 21
4589195.640253
 31
292.492361
  0
TEXT
 10
504304.053097
 20
4589195.640253
 30
292.492361
  8
Point_Code
 62
5
  6
Solid_Line
 40
1.800000
  1

 50
0.000000
 72
2
 73
3
 11
504304.053097
 21
4589195.640253
 31
292.492361
  0
TEXT
 10
504304.053097
 20
4589192.640253
 30
292.492361
  8
Attribute
 62
5
  6
Solid_Line
 40
1.800000
  1

 50
0.000000
 72
2
 73
3
 11
504304.053097
 21
4589192.640253
 31
292.492361
  0
INSERT
  2
Measured
  8
0
 62
0
  6
Solid_Line
 10
504297.469246
 20
4589186.146188
 30
292.518913
  0
TEXT
 10
504296.869246
 20
4589186.746188
 30
292.518913
  8
Point_ID
 62
5
  6
Solid_Line
 40
1.800000
  1
balasti 35
 50
0.000000
 72
2
 73
0
 11
504296.869246
 21
4589186.746188
 31
292.518913
  0
TEXT
 10
504298.069246
 20
4589185.546188
 30
292.518913
  8
Height
 62
0
  6
Solid_Line
 40
1.800000
  1
292.52
 50
0.000000
 72
0
 73
3
 11
504298.069246
 21
4589185.546188
 31
292.518913
  0
TEXT
 10
504296.869246
 20
4589185.546188
 30
292.518913
  8
Point_Code
 62
5
  6
Solid_Line
 40
1.800000
  1

 50
0.000000
 72
2
 73
3
 11
504296.869246
 21
4589185.546188
 31
292.518913
  0
TEXT
 10
504296.869246
 20
4589182.546188
 30
292.518913
  8
Attribute
 62
5
  6
Solid_Line
 40
1.800000
  1

 50
0.000000
 72
2
 73
3
 11
504296.869246
 21
4589182.546188
 31
292.518913
  0
INSERT
  2
Measured
  8
0
 62
0
  6
Solid_Line
 10
504304.174603
 20
4589186.107369
 30
292.492110
  0
TEXT
 10
504303.574603
 20
4589186.707369
 30
292.492110
  8
Point_ID
 62
5
  6
Solid_Line
 40
1.800000
  1
balasti 34
 50
0.000000
 72
2
 73
0
 11
504303.574603
 21
4589186.707369
 31
292.492110
  0
TEXT
 10
504304.774603
 20
4589185.507369
 30
292.492110
  8
Height
 62
0
  6
Solid_Line
 40
1.800000
  1
292.49
 50
0.000000
 72
0
 73
3
 11
504304.774603
 21
4589185.507369
 31
292.492110
  0
TEXT
 10
504303.574603
 20
4589185.507369
 30
292.492110
  8
Point_Code
 62
5
  6
Solid_Line
 40
1.800000
  1

 50
0.000000
 72
2
 73
3
 11
504303.574603
 21
4589185.507369
 31
292.492110
  0
TEXT
 10
504303.574603
 20
4589182.507369
 30
292.492110
  8
Attribute
 62
5
  6
Solid_Line
 40
1.800000
  1

 50
0.000000
 72
2
 73
3
 11
504303.574603
 21
4589182.507369
 31
292.492110
  0
INSERT
  2
Measured
  8
0
 62
0
  6
Solid_Line
 10
504311.842839
 20
4589199.582999
 30
291.674235
  0
TEXT
 10
504311.242839
 20
4589200.182999
 30
291.674235
  8
Point_ID
 62
5
  6
Solid_Line
 40
1.800000
  1
balasti 33
 50
0.000000
 72
2
 73
0
 11
504311.242839
 21
4589200.182999
 31
291.674235
  0
TEXT
 10
504312.442839
 20
4589198.982999
 30
291.674235
  8
Height
 62
0
  6
Solid_Line
 40
1.800000
  1
291.67
 50
0.000000
 72
0
 73
3
 11
504312.442839
 21
4589198.982999
 31
291.674235
  0
TEXT
 10
504311.242839
 20
4589198.982999
 30
291.674235
  8
Point_Code
 62
5
  6
Solid_Line
 40
1.800000
  1

 50
0.000000
 72
2
 73
3
 11
504311.242839
 21
4589198.982999
 31
291.674235
  0
TEXT
 10
504311.242839
 20
4589195.982999
 30
291.674235
  8
Attribute
 62
5
  6
Solid_Line
 40
1.800000
  1

 50
0.000000
 72
2
 73
3
 11
504311.242839
 21
4589195.982999
 31
291.674235
  0
INSERT
  2
Measured
  8
0
 62
0
  6
Solid_Line
 10
504316.108522
 20
4589217.238428
 30
291.769707
  0
TEXT
 10
504315.508522
 20
4589217.838428
 30
291.769707
  8
Point_ID
 62
5
  6
Solid_Line
 40
1.800000
  1
balasti 32
 50
0.000000
 72
2
 73
0
 11
504315.508522
 21
4589217.838428
 31
291.769707
  0
TEXT
 10
504316.708522
 20
4589216.638428
 30
291.769707
  8
Height
 62
0
  6
Solid_Line
 40
1.800000
  1
291.77
 50
0.000000
 72
0
 73
3
 11
504316.708522
 21
4589216.638428
 31
291.769707
  0
TEXT
 10
504315.508522
 20
4589216.638428
 30
291.769707
  8
Point_Code
 62
5
  6
Solid_Line
 40
1.800000
  1

 50
0.000000
 72
2
 73
3
 11
504315.508522
 21
4589216.638428
 31
291.769707
  0
TEXT
 10
504315.508522
 20
4589213.638428
 30
291.769707
  8
Attribute
 62
5
  6
Solid_Line
 40
1.800000
  1

 50
0.000000
 72
2
 73
3
 11
504315.508522
 21
4589213.638428
 31
291.769707
  0
INSERT
  2
Measured
  8
0
 62
0
  6
Solid_Line
 10
504307.636458
 20
4589221.471971
 30
292.265024
  0
TEXT
 10
504307.036458
 20
4589222.071971
 30
292.265024
  8
Point_ID
 62
5
  6
Solid_Line
 40
1.800000
  1
balasti 31
 50
0.000000
 72
2
 73
0
 11
504307.036458
 21
4589222.071971
 31
292.265024
  0
TEXT
 10
504308.236458
 20
4589220.871971
 30
292.265024
  8
Height
 62
0
  6
Solid_Line
 40
1.800000
  1
292.27
 50
0.000000
 72
0
 73
3
 11
504308.236458
 21
4589220.871971
 31
292.265024
  0
TEXT
 10
504307.036458
 20
4589220.871971
 30
292.265024
  8
Point_Code
 62
5
  6
Solid_Line
 40
1.800000
  1

 50
0.000000
 72
2
 73
3
 11
504307.036458
 21
4589220.871971
 31
292.265024
  0
TEXT
 10
504307.036458
 20
4589217.871971
 30
292.265024
  8
Attribute
 62
5
  6
Solid_Line
 40
1.800000
  1

 50
0.000000
 72
2
 73
3
 11
504307.036458
 21
4589217.871971
 31
292.265024
  0
INSERT
  2
Measured
  8
0
 62
0
  6
Solid_Line
 10
504355.986420
 20
4589211.374987
 30
292.163388
  0
TEXT
 10
504355.386420
 20
4589211.974987
 30
292.163388
  8
Point_ID
 62
5
  6
Solid_Line
 40
1.800000
  1
balasti 30
 50
0.000000
 72
2
 73
0
 11
504355.386420
 21
4589211.974987
 31
292.163388
  0
TEXT
 10
504356.586420
 20
4589210.774987
 30
292.163388
  8
Height
 62
0
  6
Solid_Line
 40
1.800000
  1
292.16
 50
0.000000
 72
0
 73
3
 11
504356.586420
 21
4589210.774987
 31
292.163388
  0
TEXT
 10
504355.386420
 20
4589210.774987
 30
292.163388
  8
Point_Code
 62
5
  6
Solid_Line
 40
1.800000
  1

 50
0.000000
 72
2
 73
3
 11
504355.386420
 21
4589210.774987
 31
292.163388
  0
TEXT
 10
504355.386420
 20
4589207.774987
 30
292.163388
  8
Attribute
 62
5
  6
Solid_Line
 40
1.800000
  1

 50
0.000000
 72
2
 73
3
 11
504355.386420
 21
4589207.774987
 31
292.163388
  0
INSERT
  2
Measured
  8
0
 62
0
  6
Solid_Line
 10
504361.094119
 20
4589256.806451
 30
292.345218
  0
TEXT
 10
504360.494119
 20
4589257.406451
 30
292.345218
  8
Point_ID
 62
5
  6
Solid_Line
 40
1.800000
  1
balasti 29
 50
0.000000
 72
2
 73
0
 11
504360.494119
 21
4589257.406451
 31
292.345218
  0
TEXT
 10
504361.694119
 20
4589256.206451
 30
292.345218
  8
Height
 62
0
  6
Solid_Line
 40
1.800000
  1
292.35
 50
0.000000
 72
0
 73
3
 11
504361.694119
 21
4589256.206451
 31
292.345218
  0
TEXT
 10
504360.494119
 20
4589256.206451
 30
292.345218
  8
Point_Code
 62
5
  6
Solid_Line
 40
1.800000
  1

 50
0.000000
 72
2
 73
3
 11
504360.494119
 21
4589256.206451
 31
292.345218
  0
TEXT
 10
504360.494119
 20
4589253.206451
 30
292.345218
  8
Attribute
 62
5
  6
Solid_Line
 40
1.800000
  1

 50
0.000000
 72
2
 73
3
 11
504360.494119
 21
4589253.206451
 31
292.345218
  0
INSERT
  2
Measured
  8
0
 62
0
  6
Solid_Line
 10
504380.038456
 20
4589254.443144
 30
292.858626
  0
TEXT
 10
504379.438456
 20
4589255.043144
 30
292.858626
  8
Point_ID
 62
5
  6
Solid_Line
 40
1.800000
  1
balasti 28
 50
0.000000
 72
2
 73
0
 11
504379.438456
 21
4589255.043144
 31
292.858626
  0
TEXT
 10
504380.638456
 20
4589253.843144
 30
292.858626
  8
Height
 62
0
  6
Solid_Line
 40
1.800000
  1
292.86
 50
0.000000
 72
0
 73
3
 11
504380.638456
 21
4589253.843144
 31
292.858626
  0
TEXT
 10
504379.438456
 20
4589253.843144
 30
292.858626
  8
Point_Code
 62
5
  6
Solid_Line
 40
1.800000
  1

 50
0.000000
 72
2
 73
3
 11
504379.438456
 21
4589253.843144
 31
292.858626
  0
TEXT
 10
504379.438456
 20
4589250.843144
 30
292.858626
  8
Attribute
 62
5
  6
Solid_Line
 40
1.800000
  1

 50
0.000000
 72
2
 73
3
 11
504379.438456
 21
4589250.843144
 31
292.858626
  0
INSERT
  2
Measured
  8
0
 62
0
  6
Solid_Line
 10
504381.148516
 20
4589261.456992
 30
292.590516
  0
TEXT
 10
504380.548516
 20
4589262.056992
 30
292.590516
  8
Point_ID
 62
5
  6
Solid_Line
 40
1.800000
  1
balasti 27
 50
0.000000
 72
2
 73
0
 11
504380.548516
 21
4589262.056992
 31
292.590516
  0
TEXT
 10
504381.748516
 20
4589260.856992
 30
292.590516
  8
Height
 62
0
  6
Solid_Line
 40
1.800000
  1
292.59
 50
0.000000
 72
0
 73
3
 11
504381.748516
 21
4589260.856992
 31
292.590516
  0
TEXT
 10
504380.548516
 20
4589260.856992
 30
292.590516
  8
Point_Code
 62
5
  6
Solid_Line
 40
1.800000
  1

 50
0.000000
 72
2
 73
3
 11
504380.548516
 21
4589260.856992
 31
292.590516
  0
TEXT
 10
504380.548516
 20
4589257.856992
 30
292.590516
  8
Attribute
 62
5
  6
Solid_Line
 40
1.800000
  1

 50
0.000000
 72
2
 73
3
 11
504380.548516
 21
4589257.856992
 31
292.590516
  0
INSERT
  2
Measured
  8
0
 62
0
  6
Solid_Line
 10
504403.766728
 20
4589260.561033
 30
292.863488
  0
TEXT
 10
504403.166728
 20
4589261.161033
 30
292.863488
  8
Point_ID
 62
5
  6
Solid_Line
 40
1.800000
  1
balasti 26
 50
0.000000
 72
2
 73
0
 11
504403.166728
 21
4589261.161033
 31
292.863488
  0
TEXT
 10
504404.366728
 20
4589259.961033
 30
292.863488
  8
Height
 62
0
  6
Solid_Line
 40
1.800000
  1
292.86
 50
0.000000
 72
0
 73
3
 11
504404.366728
 21
4589259.961033
 31
292.863488
  0
TEXT
 10
504403.166728
 20
4589259.961033
 30
292.863488
  8
Point_Code
 62
5
  6
Solid_Line
 40
1.800000
  1

 50
0.000000
 72
2
 73
3
 11
504403.166728
 21
4589259.961033
 31
292.863488
  0
TEXT
 10
504403.166728
 20
4589256.961033
 30
292.863488
  8
Attribute
 62
5
  6
Solid_Line
 40
1.800000
  1

 50
0.000000
 72
2
 73
3
 11
504403.166728
 21
4589256.961033
 31
292.863488
  0
INSERT
  2
Measured
  8
0
 62
0
  6
Solid_Line
 10
504407.618271
 20
4589344.769623
 30
293.021194
  0
TEXT
 10
504407.018271
 20
4589345.369623
 30
293.021194
  8
Point_ID
 62
5
  6
Solid_Line
 40
1.800000
  1
balasti 25
 50
0.000000
 72
2
 73
0
 11
504407.018271
 21
4589345.369623
 31
293.021194
  0
TEXT
 10
504408.218271
 20
4589344.169623
 30
293.021194
  8
Height
 62
0
  6
Solid_Line
 40
1.800000
  1
293.02
 50
0.000000
 72
0
 73
3
 11
504408.218271
 21
4589344.169623
 31
293.021194
  0
TEXT
 10
504407.018271
 20
4589344.169623
 30
293.021194
  8
Point_Code
 62
5
  6
Solid_Line
 40
1.800000
  1

 50
0.000000
 72
2
 73
3
 11
504407.018271
 21
4589344.169623
 31
293.021194
  0
TEXT
 10
504407.018271
 20
4589341.169623
 30
293.021194
  8
Attribute
 62
5
  6
Solid_Line
 40
1.800000
  1

 50
0.000000
 72
2
 73
3
 11
504407.018271
 21
4589341.169623
 31
293.021194
  0
INSERT
  2
Measured
  8
0
 62
0
  6
Solid_Line
 10
504397.766808
 20
4589343.596581
 30
293.088320
  0
TEXT
 10
504397.166808
 20
4589344.196581
 30
293.088320
  8
Point_ID
 62
5
  6
Solid_Line
 40
1.800000
  1
balasti 24
 50
0.000000
 72
2
 73
0
 11
504397.166808
 21
4589344.196581
 31
293.088320
  0
TEXT
 10
504398.366808
 20
4589342.996581
 30
293.088320
  8
Height
 62
0
  6
Solid_Line
 40
1.800000
  1
293.09
 50
0.000000
 72
0
 73
3
 11
504398.366808
 21
4589342.996581
 31
293.088320
  0
TEXT
 10
504397.166808
 20
4589342.996581
 30
293.088320
  8
Point_Code
 62
5
  6
Solid_Line
 40
1.800000
  1

 50
0.000000
 72
2
 73
3
 11
504397.166808
 21
4589342.996581
 31
293.088320
  0
TEXT
 10
504397.166808
 20
4589339.996581
 30
293.088320
  8
Attribute
 62
5
  6
Solid_Line
 40
1.800000
  1

 50
0.000000
 72
2
 73
3
 11
504397.166808
 21
4589339.996581
 31
293.088320
  0
INSERT
  2
Measured
  8
0
 62
0
  6
Solid_Line
 10
504388.176408
 20
4589335.009603
 30
292.789324
  0
TEXT
 10
504387.576408
 20
4589335.609603
 30
292.789324
  8
Point_ID
 62
5
  6
Solid_Line
 40
1.800000
  1
balasti 23
 50
0.000000
 72
2
 73
0
 11
504387.576408
 21
4589335.609603
 31
292.789324
  0
TEXT
 10
504388.776408
 20
4589334.409603
 30
292.789324
  8
Height
 62
0
  6
Solid_Line
 40
1.800000
  1
292.79
 50
0.000000
 72
0
 73
3
 11
504388.776408
 21
4589334.409603
 31
292.789324
  0
TEXT
 10
504387.576408
 20
4589334.409603
 30
292.789324
  8
Point_Code
 62
5
  6
Solid_Line
 40
1.800000
  1

 50
0.000000
 72
2
 73
3
 11
504387.576408
 21
4589334.409603
 31
292.789324
  0
TEXT
 10
504387.576408
 20
4589331.409603
 30
292.789324
  8
Attribute
 62
5
  6
Solid_Line
 40
1.800000
  1

 50
0.000000
 72
2
 73
3
 11
504387.576408
 21
4589331.409603
 31
292.789324
  0
INSERT
  2
Measured
  8
0
 62
0
  6
Solid_Line
 10
504319.306905
 20
4589289.566521
 30
292.387377
  0
TEXT
 10
504318.706905
 20
4589290.166521
 30
292.387377
  8
Point_ID
 62
5
  6
Solid_Line
 40
1.800000
  1
betoni 22
 50
0.000000
 72
2
 73
0
 11
504318.706905
 21
4589290.166521
 31
292.387377
  0
TEXT
 10
504319.906905
 20
4589288.966521
 30
292.387377
  8
Height
 62
0
  6
Solid_Line
 40
1.800000
  1
292.39
 50
0.000000
 72
0
 73
3
 11
504319.906905
 21
4589288.966521
 31
292.387377
  0
TEXT
 10
504318.706905
 20
4589288.966521
 30
292.387377
  8
Point_Code
 62
5
  6
Solid_Line
 40
1.800000
  1

 50
0.000000
 72
2
 73
3
 11
504318.706905
 21
4589288.966521
 31
292.387377
  0
TEXT
 10
504318.706905
 20
4589285.966521
 30
292.387377
  8
Attribute
 62
5
  6
Solid_Line
 40
1.800000
  1

 50
0.000000
 72
2
 73
3
 11
504318.706905
 21
4589285.966521
 31
292.387377
  0
INSERT
  2
Measured
  8
0
 62
0
  6
Solid_Line
 10
504317.480976
 20
4589274.849570
 30
291.698189
  0
TEXT
 10
504316.880976
 20
4589275.449570
 30
291.698189
  8
Point_ID
 62
5
  6
Solid_Line
 40
1.800000
  1
betoni 21
 50
0.000000
 72
2
 73
0
 11
504316.880976
 21
4589275.449570
 31
291.698189
  0
TEXT
 10
504318.080976
 20
4589274.249570
 30
291.698189
  8
Height
 62
0
  6
Solid_Line
 40
1.800000
  1
291.70
 50
0.000000
 72
0
 73
3
 11
504318.080976
 21
4589274.249570
 31
291.698189
  0
TEXT
 10
504316.880976
 20
4589274.249570
 30
291.698189
  8
Point_Code
 62
5
  6
Solid_Line
 40
1.800000
  1

 50
0.000000
 72
2
 73
3
 11
504316.880976
 21
4589274.249570
 31
291.698189
  0
TEXT
 10
504316.880976
 20
4589271.249570
 30
291.698189
  8
Attribute
 62
5
  6
Solid_Line
 40
1.800000
  1

 50
0.000000
 72
2
 73
3
 11
504316.880976
 21
4589271.249570
 31
291.698189
  0
INSERT
  2
Measured
  8
0
 62
0
  6
Solid_Line
 10
504322.103710
 20
4589273.825251
 30
291.897874
  0
TEXT
 10
504321.503710
 20
4589274.425251
 30
291.897874
  8
Point_ID
 62
5
  6
Solid_Line
 40
1.800000
  1
betoni 20
 50
0.000000
 72
2
 73
0
 11
504321.503710
 21
4589274.425251
 31
291.897874
  0
TEXT
 10
504322.703710
 20
4589273.225251
 30
291.897874
  8
Height
 62
0
  6
Solid_Line
 40
1.800000
  1
291.90
 50
0.000000
 72
0
 73
3
 11
504322.703710
 21
4589273.225251
 31
291.897874
  0
TEXT
 10
504321.503710
 20
4589273.225251
 30
291.897874
  8
Point_Code
 62
5
  6
Solid_Line
 40
1.800000
  1

 50
0.000000
 72
2
 73
3
 11
504321.503710
 21
4589273.225251
 31
291.897874
  0
TEXT
 10
504321.503710
 20
4589270.225251
 30
291.897874
  8
Attribute
 62
5
  6
Solid_Line
 40
1.800000
  1

 50
0.000000
 72
2
 73
3
 11
504321.503710
 21
4589270.225251
 31
291.897874
  0
INSERT
  2
Measured
  8
0
 62
0
  6
Solid_Line
 10
504346.098176
 20
4589286.678731
 30
292.380266
  0
TEXT
 10
504345.498176
 20
4589287.278731
 30
292.380266
  8
Point_ID
 62
5
  6
Solid_Line
 40
1.800000
  1
betonis dasas 19
 50
0.000000
 72
2
 73
0
 11
504345.498176
 21
4589287.278731
 31
292.380266
  0
TEXT
 10
504346.698176
 20
4589286.078731
 30
292.380266
  8
Height
 62
0
  6
Solid_Line
 40
1.800000
  1
292.38
 50
0.000000
 72
0
 73
3
 11
504346.698176
 21
4589286.078731
 31
292.380266
  0
TEXT
 10
504345.498176
 20
4589286.078731
 30
292.380266
  8
Point_Code
 62
5
  6
Solid_Line
 40
1.800000
  1

 50
0.000000
 72
2
 73
3
 11
504345.498176
 21
4589286.078731
 31
292.380266
  0
TEXT
 10
504345.498176
 20
4589283.078731
 30
292.380266
  8
Attribute
 62
5
  6
Solid_Line
 40
1.800000
  1

 50
0.000000
 72
2
 73
3
 11
504345.498176
 21
4589283.078731
 31
292.380266
  0
INSERT
  2
Measured
  8
0
 62
0
  6
Solid_Line
 10
504344.016368
 20
4589270.240951
 30
292.446901
  0
TEXT
 10
504343.416368
 20
4589270.840951
 30
292.446901
  8
Point_ID
 62
5
  6
Solid_Line
 40
1.800000
  1
betonis dasas 18
 50
0.000000
 72
2
 73
0
 11
504343.416368
 21
4589270.840951
 31
292.446901
  0
TEXT
 10
504344.616368
 20
4589269.640951
 30
292.446901
  8
Height
 62
0
  6
Solid_Line
 40
1.800000
  1
292.45
 50
0.000000
 72
0
 73
3
 11
504344.616368
 21
4589269.640951
 31
292.446901
  0
TEXT
 10
504343.416368
 20
4589269.640951
 30
292.446901
  8
Point_Code
 62
5
  6
Solid_Line
 40
1.800000
  1

 50
0.000000
 72
2
 73
3
 11
504343.416368
 21
4589269.640951
 31
292.446901
  0
TEXT
 10
504343.416368
 20
4589266.640951
 30
292.446901
  8
Attribute
 62
5
  6
Solid_Line
 40
1.800000
  1

 50
0.000000
 72
2
 73
3
 11
504343.416368
 21
4589266.640951
 31
292.446901
  0
INSERT
  2
Measured
  8
0
 62
0
  6
Solid_Line
 10
504341.060486
 20
4589270.557367
 30
292.135875
  0
TEXT
 10
504340.460486
 20
4589271.157367
 30
292.135875
  8
Point_ID
 62
5
  6
Solid_Line
 40
1.800000
  1
betoni  17
 50
0.000000
 72
2
 73
0
 11
504340.460486
 21
4589271.157367
 31
292.135875
  0
TEXT
 10
504341.660486
 20
4589269.957367
 30
292.135875
  8
Height
 62
0
  6
Solid_Line
 40
1.800000
  1
292.14
 50
0.000000
 72
0
 73
3
 11
504341.660486
 21
4589269.957367
 31
292.135875
  0
TEXT
 10
504340.460486
 20
4589269.957367
 30
292.135875
  8
Point_Code
 62
5
  6
Solid_Line
 40
1.800000
  1

 50
0.000000
 72
2
 73
3
 11
504340.460486
 21
4589269.957367
 31
292.135875
  0
TEXT
 10
504340.460486
 20
4589266.957367
 30
292.135875
  8
Attribute
 62
5
  6
Solid_Line
 40
1.800000
  1

 50
0.000000
 72
2
 73
3
 11
504340.460486
 21
4589266.957367
 31
292.135875
  0
INSERT
  2
Measured
  8
0
 62
0
  6
Solid_Line
 10
504342.546555
 20
4589281.269185
 30
292.194015
  0
TEXT
 10
504341.946555
 20
4589281.869185
 30
292.194015
  8
Point_ID
 62
5
  6
Solid_Line
 40
1.800000
  1
betoni  16
 50
0.000000
 72
2
 73
0
 11
504341.946555
 21
4589281.869185
 31
292.194015
  0
TEXT
 10
504343.146555
 20
4589280.669185
 30
292.194015
  8
Height
 62
0
  6
Solid_Line
 40
1.800000
  1
292.19
 50
0.000000
 72
0
 73
3
 11
504343.146555
 21
4589280.669185
 31
292.194015
  0
TEXT
 10
504341.946555
 20
4589280.669185
 30
292.194015
  8
Point_Code
 62
5
  6
Solid_Line
 40
1.800000
  1

 50
0.000000
 72
2
 73
3
 11
504341.946555
 21
4589280.669185
 31
292.194015
  0
TEXT
 10
504341.946555
 20
4589277.669185
 30
292.194015
  8
Attribute
 62
5
  6
Solid_Line
 40
1.800000
  1

 50
0.000000
 72
2
 73
3
 11
504341.946555
 21
4589277.669185
 31
292.194015
  0
INSERT
  2
Measured
  8
0
 62
0
  6
Solid_Line
 10
504335.189381
 20
4589282.094418
 30
292.132234
  0
TEXT
 10
504334.589381
 20
4589282.694418
 30
292.132234
  8
Point_ID
 62
5
  6
Solid_Line
 40
1.800000
  1
betoni  15
 50
0.000000
 72
2
 73
0
 11
504334.589381
 21
4589282.694418
 31
292.132234
  0
TEXT
 10
504335.789381
 20
4589281.494418
 30
292.132234
  8
Height
 62
0
  6
Solid_Line
 40
1.800000
  1
292.13
 50
0.000000
 72
0
 73
3
 11
504335.789381
 21
4589281.494418
 31
292.132234
  0
TEXT
 10
504334.589381
 20
4589281.494418
 30
292.132234
  8
Point_Code
 62
5
  6
Solid_Line
 40
1.800000
  1

 50
0.000000
 72
2
 73
3
 11
504334.589381
 21
4589281.494418
 31
292.132234
  0
TEXT
 10
504334.589381
 20
4589278.494418
 30
292.132234
  8
Attribute
 62
5
  6
Solid_Line
 40
1.800000
  1

 50
0.000000
 72
2
 73
3
 11
504334.589381
 21
4589278.494418
 31
292.132234
  0
INSERT
  2
Measured
  8
0
 62
0
  6
Solid_Line
 10
504333.293536
 20
4589271.269066
 30
292.062774
  0
TEXT
 10
504332.693536
 20
4589271.869066
 30
292.062774
  8
Point_ID
 62
5
  6
Solid_Line
 40
1.800000
  1
betoni  14
 50
0.000000
 72
2
 73
0
 11
504332.693536
 21
4589271.869066
 31
292.062774
  0
TEXT
 10
504333.893536
 20
4589270.669066
 30
292.062774
  8
Height
 62
0
  6
Solid_Line
 40
1.800000
  1
292.06
 50
0.000000
 72
0
 73
3
 11
504333.893536
 21
4589270.669066
 31
292.062774
  0
TEXT
 10
504332.693536
 20
4589270.669066
 30
292.062774
  8
Point_Code
 62
5
  6
Solid_Line
 40
1.800000
  1

 50
0.000000
 72
2
 73
3
 11
504332.693536
 21
4589270.669066
 31
292.062774
  0
TEXT
 10
504332.693536
 20
4589267.669066
 30
292.062774
  8
Attribute
 62
5
  6
Solid_Line
 40
1.800000
  1

 50
0.000000
 72
2
 73
3
 11
504332.693536
 21
4589267.669066
 31
292.062774
  0
INSERT
  2
Measured
  8
0
 62
0
  6
Solid_Line
 10
504327.479569
 20
4589272.474038
 30
291.892430
  0
TEXT
 10
504326.879569
 20
4589273.074038
 30
291.892430
  8
Point_ID
 62
5
  6
Solid_Line
 40
1.800000
  1
betoni  13
 50
0.000000
 72
2
 73
0
 11
504326.879569
 21
4589273.074038
 31
291.892430
  0
TEXT
 10
504328.079569
 20
4589271.874038
 30
291.892430
  8
Height
 62
0
  6
Solid_Line
 40
1.800000
  1
291.89
 50
0.000000
 72
0
 73
3
 11
504328.079569
 21
4589271.874038
 31
291.892430
  0
TEXT
 10
504326.879569
 20
4589271.874038
 30
291.892430
  8
Point_Code
 62
5
  6
Solid_Line
 40
1.800000
  1

 50
0.000000
 72
2
 73
3
 11
504326.879569
 21
4589271.874038
 31
291.892430
  0
TEXT
 10
504326.879569
 20
4589268.874038
 30
291.892430
  8
Attribute
 62
5
  6
Solid_Line
 40
1.800000
  1

 50
0.000000
 72
2
 73
3
 11
504326.879569
 21
4589268.874038
 31
291.892430
  0
INSERT
  2
Measured
  8
0
 62
0
  6
Solid_Line
 10
504324.755296
 20
4589253.255890
 30
292.246597
  0
TEXT
 10
504324.155296
 20
4589253.855890
 30
292.246597
  8
Point_ID
 62
5
  6
Solid_Line
 40
1.800000
  1
betoni  12
 50
0.000000
 72
2
 73
0
 11
504324.155296
 21
4589253.855890
 31
292.246597
  0
TEXT
 10
504325.355296
 20
4589252.655890
 30
292.246597
  8
Height
 62
0
  6
Solid_Line
 40
1.800000
  1
292.25
 50
0.000000
 72
0
 73
3
 11
504325.355296
 21
4589252.655890
 31
292.246597
  0
TEXT
 10
504324.155296
 20
4589252.655890
 30
292.246597
  8
Point_Code
 62
5
  6
Solid_Line
 40
1.800000
  1

 50
0.000000
 72
2
 73
3
 11
504324.155296
 21
4589252.655890
 31
292.246597
  0
TEXT
 10
504324.155296
 20
4589249.655890
 30
292.246597
  8
Attribute
 62
5
  6
Solid_Line
 40
1.800000
  1

 50
0.000000
 72
2
 73
3
 11
504324.155296
 21
4589249.655890
 31
292.246597
  0
INSERT
  2
Measured
  8
0
 62
0
  6
Solid_Line
 10
504323.631633
 20
4589253.345205
 30
292.232823
  0
TEXT
 10
504323.031633
 20
4589253.945205
 30
292.232823
  8
Point_ID
 62
5
  6
Solid_Line
 40
1.800000
  1
betoni  11
 50
0.000000
 72
2
 73
0
 11
504323.031633
 21
4589253.945205
 31
292.232823
  0
TEXT
 10
504324.231633
 20
4589252.745205
 30
292.232823
  8
Height
 62
0
  6
Solid_Line
 40
1.800000
  1
292.23
 50
0.000000
 72
0
 73
3
 11
504324.231633
 21
4589252.745205
 31
292.232823
  0
TEXT
 10
504323.031633
 20
4589252.745205
 30
292.232823
  8
Point_Code
 62
5
  6
Solid_Line
 40
1.800000
  1

 50
0.000000
 72
2
 73
3
 11
504323.031633
 21
4589252.745205
 31
292.232823
  0
TEXT
 10
504323.031633
 20
4589249.745205
 30
292.232823
  8
Attribute
 62
5
  6
Solid_Line
 40
1.800000
  1

 50
0.000000
 72
2
 73
3
 11
504323.031633
 21
4589249.745205
 31
292.232823
  0
INSERT
  2
Measured
  8
0
 62
0
  6
Solid_Line
 10
504323.826152
 20
4589256.551947
 30
291.978864
  0
TEXT
 10
504323.226152
 20
4589257.151947
 30
291.978864
  8
Point_ID
 62
5
  6
Solid_Line
 40
1.800000
  1
betoni  10
 50
0.000000
 72
2
 73
0
 11
504323.226152
 21
4589257.151947
 31
291.978864
  0
TEXT
 10
504324.426152
 20
4589255.951947
 30
291.978864
  8
Height
 62
0
  6
Solid_Line
 40
1.800000
  1
291.98
 50
0.000000
 72
0
 73
3
 11
504324.426152
 21
4589255.951947
 31
291.978864
  0
TEXT
 10
504323.226152
 20
4589255.951947
 30
291.978864
  8
Point_Code
 62
5
  6
Solid_Line
 40
1.800000
  1

 50
0.000000
 72
2
 73
3
 11
504323.226152
 21
4589255.951947
 31
291.978864
  0
TEXT
 10
504323.226152
 20
4589252.951947
 30
291.978864
  8
Attribute
 62
5
  6
Solid_Line
 40
1.800000
  1

 50
0.000000
 72
2
 73
3
 11
504323.226152
 21
4589252.951947
 31
291.978864
  0
INSERT
  2
Measured
  8
0
 62
0
  6
Solid_Line
 10
504301.272171
 20
4589228.386817
 30
292.639767
  0
TEXT
 10
504300.672171
 20
4589228.986817
 30
292.639767
  8
Point_ID
 62
5
  6
Solid_Line
 40
1.800000
  1
aspaltis bolo 9
 50
0.000000
 72
2
 73
0
 11
504300.672171
 21
4589228.986817
 31
292.639767
  0
TEXT
 10
504301.872171
 20
4589227.786817
 30
292.639767
  8
Height
 62
0
  6
Solid_Line
 40
1.800000
  1
292.64
 50
0.000000
 72
0
 73
3
 11
504301.872171
 21
4589227.786817
 31
292.639767
  0
TEXT
 10
504300.672171
 20
4589227.786817
 30
292.639767
  8
Point_Code
 62
5
  6
Solid_Line
 40
1.800000
  1

 50
0.000000
 72
2
 73
3
 11
504300.672171
 21
4589227.786817
 31
292.639767
  0
TEXT
 10
504300.672171
 20
4589224.786817
 30
292.639767
  8
Attribute
 62
5
  6
Solid_Line
 40
1.800000
  1

 50
0.000000
 72
2
 73
3
 11
504300.672171
 21
4589224.786817
 31
292.639767
  0
INSERT
  2
Measured
  8
0
 62
0
  6
Solid_Line
 10
504307.742068
 20
4589227.481941
 30
292.593284
  0
TEXT
 10
504307.142068
 20
4589228.081941
 30
292.593284
  8
Point_ID
 62
5
  6
Solid_Line
 40
1.800000
  1
aspaltis bolo 8
 50
0.000000
 72
2
 73
0
 11
504307.142068
 21
4589228.081941
 31
292.593284
  0
TEXT
 10
504308.342068
 20
4589226.881941
 30
292.593284
  8
Height
 62
0
  6
Solid_Line
 40
1.800000
  1
292.59
 50
0.000000
 72
0
 73
3
 11
504308.342068
 21
4589226.881941
 31
292.593284
  0
TEXT
 10
504307.142068
 20
4589226.881941
 30
292.593284
  8
Point_Code
 62
5
  6
Solid_Line
 40
1.800000
  1

 50
0.000000
 72
2
 73
3
 11
504307.142068
 21
4589226.881941
 31
292.593284
  0
TEXT
 10
504307.142068
 20
4589223.881941
 30
292.593284
  8
Attribute
 62
5
  6
Solid_Line
 40
1.800000
  1

 50
0.000000
 72
2
 73
3
 11
504307.142068
 21
4589223.881941
 31
292.593284
  0
INSERT
  2
Measured
  8
0
 62
0
  6
Solid_Line
 10
504309.135486
 20
4589241.109231
 30
292.622130
  0
TEXT
 10
504308.535486
 20
4589241.709231
 30
292.622130
  8
Point_ID
 62
5
  6
Solid_Line
 40
1.800000
  1
aspalti 7
 50
0.000000
 72
2
 73
0
 11
504308.535486
 21
4589241.709231
 31
292.622130
  0
TEXT
 10
504309.735486
 20
4589240.509231
 30
292.622130
  8
Height
 62
0
  6
Solid_Line
 40
1.800000
  1
292.62
 50
0.000000
 72
0
 73
3
 11
504309.735486
 21
4589240.509231
 31
292.622130
  0
TEXT
 10
504308.535486
 20
4589240.509231
 30
292.622130
  8
Point_Code
 62
5
  6
Solid_Line
 40
1.800000
  1

 50
0.000000
 72
2
 73
3
 11
504308.535486
 21
4589240.509231
 31
292.622130
  0
TEXT
 10
504308.535486
 20
4589237.509231
 30
292.622130
  8
Attribute
 62
5
  6
Solid_Line
 40
1.800000
  1

 50
0.000000
 72
2
 73
3
 11
504308.535486
 21
4589237.509231
 31
292.622130
  0
INSERT
  2
Measured
  8
0
 62
0
  6
Solid_Line
 10
504310.834341
 20
4589259.221363
 30
292.523009
  0
TEXT
 10
504310.234341
 20
4589259.821363
 30
292.523009
  8
Point_ID
 62
5
  6
Solid_Line
 40
1.800000
  1
aspalti 6
 50
0.000000
 72
2
 73
0
 11
504310.234341
 21
4589259.821363
 31
292.523009
  0
TEXT
 10
504311.434341
 20
4589258.621363
 30
292.523009
  8
Height
 62
0
  6
Solid_Line
 40
1.800000
  1
292.52
 50
0.000000
 72
0
 73
3
 11
504311.434341
 21
4589258.621363
 31
292.523009
  0
TEXT
 10
504310.234341
 20
4589258.621363
 30
292.523009
  8
Point_Code
 62
5
  6
Solid_Line
 40
1.800000
  1

 50
0.000000
 72
2
 73
3
 11
504310.234341
 21
4589258.621363
 31
292.523009
  0
TEXT
 10
504310.234341
 20
4589255.621363
 30
292.523009
  8
Attribute
 62
5
  6
Solid_Line
 40
1.800000
  1

 50
0.000000
 72
2
 73
3
 11
504310.234341
 21
4589255.621363
 31
292.523009
  0
INSERT
  2
Measured
  8
0
 62
0
  6
Solid_Line
 10
504311.444570
 20
4589267.526028
 30
292.795679
  0
TEXT
 10
504310.844570
 20
4589268.126028
 30
292.795679
  8
Point_ID
 62
5
  6
Solid_Line
 40
1.800000
  1
aspalti 5
 50
0.000000
 72
2
 73
0
 11
504310.844570
 21
4589268.126028
 31
292.795679
  0
TEXT
 10
504312.044570
 20
4589266.926028
 30
292.795679
  8
Height
 62
0
  6
Solid_Line
 40
1.800000
  1
292.80
 50
0.000000
 72
0
 73
3
 11
504312.044570
 21
4589266.926028
 31
292.795679
  0
TEXT
 10
504310.844570
 20
4589266.926028
 30
292.795679
  8
Point_Code
 62
5
  6
Solid_Line
 40
1.800000
  1

 50
0.000000
 72
2
 73
3
 11
504310.844570
 21
4589266.926028
 31
292.795679
  0
TEXT
 10
504310.844570
 20
4589263.926028
 30
292.795679
  8
Attribute
 62
5
  6
Solid_Line
 40
1.800000
  1

 50
0.000000
 72
2
 73
3
 11
504310.844570
 21
4589263.926028
 31
292.795679
  0
INSERT
  2
Measured
  8
0
 62
0
  6
Solid_Line
 10
504317.333840
 20
4589332.489631
 30
292.696542
  0
TEXT
 10
504316.733840
 20
4589333.089631
 30
292.696542
  8
Point_ID
 62
5
  6
Solid_Line
 40
1.800000
  1
aspalti 4
 50
0.000000
 72
2
 73
0
 11
504316.733840
 21
4589333.089631
 31
292.696542
  0
TEXT
 10
504317.933840
 20
4589331.889631
 30
292.696542
  8
Height
 62
0
  6
Solid_Line
 40
1.800000
  1
292.70
 50
0.000000
 72
0
 73
3
 11
504317.933840
 21
4589331.889631
 31
292.696542
  0
TEXT
 10
504316.733840
 20
4589331.889631
 30
292.696542
  8
Point_Code
 62
5
  6
Solid_Line
 40
1.800000
  1

 50
0.000000
 72
2
 73
3
 11
504316.733840
 21
4589331.889631
 31
292.696542
  0
TEXT
 10
504316.733840
 20
4589328.889631
 30
292.696542
  8
Attribute
 62
5
  6
Solid_Line
 40
1.800000
  1

 50
0.000000
 72
2
 73
3
 11
504316.733840
 21
4589328.889631
 31
292.696542
  0
INSERT
  2
Measured
  8
0
 62
0
  6
Solid_Line
 10
504333.715508
 20
4589331.327102
 30
292.594255
  0
TEXT
 10
504333.115508
 20
4589331.927102
 30
292.594255
  8
Point_ID
 62
5
  6
Solid_Line
 40
1.800000
  1
aspalti 3
 50
0.000000
 72
2
 73
0
 11
504333.115508
 21
4589331.927102
 31
292.594255
  0
TEXT
 10
504334.315508
 20
4589330.727102
 30
292.594255
  8
Height
 62
0
  6
Solid_Line
 40
1.800000
  1
292.59
 50
0.000000
 72
0
 73
3
 11
504334.315508
 21
4589330.727102
 31
292.594255
  0
TEXT
 10
504333.115508
 20
4589330.727102
 30
292.594255
  8
Point_Code
 62
5
  6
Solid_Line
 40
1.800000
  1

 50
0.000000
 72
2
 73
3
 11
504333.115508
 21
4589330.727102
 31
292.594255
  0
TEXT
 10
504333.115508
 20
4589327.727102
 30
292.594255
  8
Attribute
 62
5
  6
Solid_Line
 40
1.800000
  1

 50
0.000000
 72
2
 73
3
 11
504333.115508
 21
4589327.727102
 31
292.594255
  0
INSERT
  2
Measured
  8
0
 62
0
  6
Solid_Line
 10
504333.684369
 20
4589340.684456
 30
292.566044
  0
TEXT
 10
504333.084369
 20
4589341.284456
 30
292.566044
  8
Point_ID
 62
5
  6
Solid_Line
 40
1.800000
  1
aspaltis dasawy2
 50
0.000000
 72
2
 73
0
 11
504333.084369
 21
4589341.284456
 31
292.566044
  0
TEXT
 10
504334.284369
 20
4589340.084456
 30
292.566044
  8
Height
 62
0
  6
Solid_Line
 40
1.800000
  1
292.57
 50
0.000000
 72
0
 73
3
 11
504334.284369
 21
4589340.084456
 31
292.566044
  0
TEXT
 10
504333.084369
 20
4589340.084456
 30
292.566044
  8
Point_Code
 62
5
  6
Solid_Line
 40
1.800000
  1

 50
0.000000
 72
2
 73
3
 11
504333.084369
 21
4589340.084456
 31
292.566044
  0
TEXT
 10
504333.084369
 20
4589337.084456
 30
292.566044
  8
Attribute
 62
5
  6
Solid_Line
 40
1.800000
  1

 50
0.000000
 72
2
 73
3
 11
504333.084369
 21
4589337.084456
 31
292.566044
  0
INSERT
  2
Measured
  8
0
 62
0
  6
Solid_Line
 10
504311.458131
 20
4589340.258744
 30
292.747191
  0
TEXT
 10
504310.858131
 20
4589340.858744
 30
292.747191
  8
Point_ID
 62
5
  6
Solid_Line
 40
1.800000
  1
aspaltis dasawy1
 50
0.000000
 72
2
 73
0
 11
504310.858131
 21
4589340.858744
 31
292.747191
  0
TEXT
 10
504312.058131
 20
4589339.658744
 30
292.747191
  8
Height
 62
0
  6
Solid_Line
 40
1.800000
  1
292.75
 50
0.000000
 72
0
 73
3
 11
504312.058131
 21
4589339.658744
 31
292.747191
  0
TEXT
 10
504310.858131
 20
4589339.658744
 30
292.747191
  8
Point_Code
 62
5
  6
Solid_Line
 40
1.800000
  1

 50
0.000000
 72
2
 73
3
 11
504310.858131
 21
4589339.658744
 31
292.747191
  0
TEXT
 10
504310.858131
 20
4589336.658744
 30
292.747191
  8
Attribute
 62
5
  6
Solid_Line
 40
1.800000
  1

 50
0.000000
 72
2
 73
3
 11
504310.858131
 21
4589336.658744
 31
292.747191
  0
INSERT
  2
Reference
  8
0
 62
0
  6
Solid_Line
 10
503081.956522
 20
4581622.796842
 30
313.496225
  0
TEXT
 10
503081.356522
 20
4581623.396842
 30
313.496225
  8
Point_ID
 62
5
  6
Solid_Line
 40
1.800000
  1
RTCM-Ref 0005
 50
0.000000
 72
2
 73
0
 11
503081.356522
 21
4581623.396842
 31
313.496225
  0
TEXT
 10
503082.556522
 20
4581622.196842
 30
313.496225
  8
Height
 62
0
  6
Solid_Line
 40
1.800000
  1
313.50
 50
0.000000
 72
0
 73
3
 11
503082.556522
 21
4581622.196842
 31
313.496225
  0
TEXT
 10
503081.356522
 20
4581622.196842
 30
313.496225
  8
Point_Code
 62
5
  6
Solid_Line
 40
1.800000
  1

 50
0.000000
 72
2
 73
3
 11
503081.356522
 21
4581622.196842
 31
313.496225
  0
TEXT
 10
503081.356522
 20
4581619.196842
 30
313.496225
  8
Attribute
 62
5
  6
Solid_Line
 40
1.800000
  1

 50
0.000000
 72
2
 73
3
 11
503081.356522
 21
4581619.196842
 31
313.496225
  0
POLYLINE
 66
1
 70
8
  8
0
 62
0
  6
Solid_Line
  0
VERTEX
  8
0
 70
32
 10
504311.458131
 20
4589340.258744
 30
292.747191
  0
VERTEX
  8
0
 70
32
 10
504311.458131
 20
4589340.258744
 30
292.747191
  0
SEQEND
  0
POLYLINE
 66
1
 70
8
  8
0
 62
0
  6
Solid_Line
  0
VERTEX
  8
0
 70
32
 10
504333.684369
 20
4589340.684456
 30
292.566044
  0
VERTEX
  8
0
 70
32
 10
504333.715508
 20
4589331.327102
 30
292.594255
  0
VERTEX
  8
0
 70
32
 10
504317.333840
 20
4589332.489631
 30
292.696542
  0
SEQEND
  0
POLYLINE
 66
1
 70
8
  8
0
 62
0
  6
Solid_Line
  0
VERTEX
  8
0
 70
32
 10
504317.333840
 20
4589332.489631
 30
292.696542
  0
VERTEX
  8
0
 70
32
 10
504311.444570
 20
4589267.526028
 30
292.795679
  0
SEQEND
  0
POLYLINE
 66
1
 70
8
  8
0
 62
0
  6
Solid_Line
  0
VERTEX
  8
0
 70
32
 10
504310.834341
 20
4589259.221363
 30
292.523009
  0
VERTEX
  8
0
 70
32
 10
504310.834341
 20
4589259.221363
 30
292.523009
  0
SEQEND
  0
POLYLINE
 66
1
 70
8
  8
0
 62
0
  6
Solid_Line
  0
VERTEX
  8
0
 70
32
 10
504310.834341
 20
4589259.221363
 30
292.523009
  0
VERTEX
  8
0
 70
32
 10
504309.135486
 20
4589241.109231
 30
292.622130
  0
SEQEND
  0
POLYLINE
 66
1
 70
8
  8
0
 62
0
  6
Solid_Line
  0
VERTEX
  8
0
 70
32
 10
504307.742068
 20
4589227.481941
 30
292.593284
  0
VERTEX
  8
0
 70
32
 10
504307.742068
 20
4589227.481941
 30
292.593284
  0
SEQEND
  0
POLYLINE
 66
1
 70
8
  8
0
 62
0
  6
Solid_Line
  0
VERTEX
  8
0
 70
32
 10
504311.458131
 20
4589340.258744
 30
292.747191
  0
VERTEX
  8
0
 70
32
 10
504301.272171
 20
4589228.386817
 30
292.639767
  0
SEQEND
  0
POLYLINE
 66
1
 70
8
  8
0
 62
0
  6
Solid_Line
  0
VERTEX
  8
0
 70
32
 10
504310.834341
 20
4589259.221363
 30
292.523009
  0
VERTEX
  8
0
 70
32
 10
504323.826152
 20
4589256.551947
 30
291.978864
  0
VERTEX
  8
0
 70
32
 10
504323.631633
 20
4589253.345205
 30
292.232823
  0
VERTEX
  8
0
 70
32
 10
504324.755296
 20
4589253.255890
 30
292.246597
  0
VERTEX
  8
0
 70
32
 10
504327.479569
 20
4589272.474038
 30
291.892430
  0
VERTEX
  8
0
 70
32
 10
504333.293536
 20
4589271.269066
 30
292.062774
  0
VERTEX
  8
0
 70
32
 10
504335.189381
 20
4589282.094418
 30
292.132234
  0
VERTEX
  8
0
 70
32
 10
504342.546555
 20
4589281.269185
 30
292.194015
  0
VERTEX
  8
0
 70
32
 10
504341.060486
 20
4589270.557367
 30
292.135875
  0
VERTEX
  8
0
 70
32
 10
504344.016368
 20
4589270.240951
 30
292.446901
  0
VERTEX
  8
0
 70
32
 10
504346.098176
 20
4589286.678731
 30
292.380266
  0
SEQEND
  0
POLYLINE
 66
1
 70
8
  8
0
 62
0
  6
Solid_Line
  0
VERTEX
  8
0
 70
32
 10
504311.444570
 20
4589267.526028
 30
292.795679
  0
VERTEX
  8
0
 70
32
 10
504322.103710
 20
4589273.825251
 30
291.897874
  0
SEQEND
  0
POLYLINE
 66
1
 70
8
  8
0
 62
0
  6
Solid_Line
  0
VERTEX
  8
0
 70
32
 10
504322.103710
 20
4589273.825251
 30
291.897874
  0
VERTEX
  8
0
 70
32
 10
504317.480976
 20
4589274.849570
 30
291.698189
  0
VERTEX
  8
0
 70
32
 10
504319.306905
 20
4589289.566521
 30
292.387377
  0
VERTEX
  8
0
 70
32
 10
504346.098176
 20
4589286.678731
 30
292.380266
  0
SEQEND
  0
POLYLINE
 66
1
 70
8
  8
0
 62
0
  6
Solid_Line
  0
VERTEX
  8
0
 70
32
 10
504333.684369
 20
4589340.684456
 30
292.566044
  0
VERTEX
  8
0
 70
32
 10
504388.176408
 20
4589335.009603
 30
292.789324
  0
VERTEX
  8
0
 70
32
 10
504397.766808
 20
4589343.596581
 30
293.088320
  0
VERTEX
  8
0
 70
32
 10
504407.618271
 20
4589344.769623
 30
293.021194
  0
VERTEX
  8
0
 70
32
 10
504403.766728
 20
4589260.561033
 30
292.863488
  0
VERTEX
  8
0
 70
32
 10
504381.148516
 20
4589261.456992
 30
292.590516
  0
VERTEX
  8
0
 70
32
 10
504380.038456
 20
4589254.443144
 30
292.858626
  0
VERTEX
  8
0
 70
32
 10
504361.094119
 20
4589256.806451
 30
292.345218
  0
VERTEX
  8
0
 70
32
 10
504355.986420
 20
4589211.374987
 30
292.163388
  0
VERTEX
  8
0
 70
32
 10
504307.636458
 20
4589221.471971
 30
292.265024
  0
VERTEX
  8
0
 70
32
 10
504309.135486
 20
4589241.109231
 30
292.622130
  0
SEQEND
  0
POLYLINE
 66
1
 70
8
  8
0
 62
0
  6
Solid_Line
  0
VERTEX
  8
0
 70
32
 10
504316.108522
 20
4589217.238428
 30
291.769707
  0
VERTEX
  8
0
 70
32
 10
504311.842839
 20
4589199.582999
 30
291.674235
  0
VERTEX
  8
0
 70
32
 10
504304.174603
 20
4589186.107369
 30
292.492110
  0
VERTEX
  8
0
 70
32
 10
504297.469246
 20
4589186.146188
 30
292.518913
  0
SEQEND
  0
POLYLINE
 66
1
 70
8
  8
0
 62
0
  6
Solid_Line
  0
VERTEX
  8
0
 70
32
 10
504304.174603
 20
4589186.107369
 30
292.492110
  0
VERTEX
  8
0
 70
32
 10
504304.653097
 20
4589196.240253
 30
292.492361
  0
SEQEND
  0
POLYLINE
 66
1
 70
8
  8
0
 62
0
  6
Solid_Line
  0
VERTEX
  8
0
 70
32
 10
504297.469246
 20
4589186.146188
 30
292.518913
  0
VERTEX
  8
0
 70
32
 10
504301.272171
 20
4589228.386817
 30
292.639767
  0
VERTEX
  8
0
 70
32
 10
504307.742068
 20
4589227.481941
 30
292.593284
  0
SEQEND
  0
POLYLINE
 66
1
 70
8
  8
0
 62
0
  6
Solid_Line
  0
VERTEX
  8
0
 70
32
 10
504304.653097
 20
4589196.240253
 30
292.492361
  0
VERTEX
  8
0
 70
32
 10
504307.636458
 20
4589221.471971
 30
292.265024
  0
SEQEND
  0
POLYLINE
 66
1
 70
8
  8
0
 62
0
  6
Solid_Line
  0
VERTEX
  8
0
 70
32
 10
504344.010636
 20
4589270.242302
 30
292.444092
  0
VERTEX
  8
0
 70
32
 10
504350.026490
 20
4589269.373244
 30
292.591203
  0
VERTEX
  8
0
 70
32
 10
504349.937548
 20
4589268.515558
 30
292.614982
  0
VERTEX
  8
0
 70
32
 10
504375.499455
 20
4589265.323851
 30
292.619600
  0
VERTEX
  8
0
 70
32
 10
504377.279470
 20
4589279.915897
 30
292.684762
  0
VERTEX
  8
0
 70
32
 10
504369.948654
 20
4589280.865023
 30
292.742825
  0
VERTEX
  8
0
 70
32
 10
504370.110394
 20
4589282.313659
 30
292.707789
  0
VERTEX
  8
0
 70
32
 10
504345.875434
 20
4589285.455409
 30
292.340573
  0
VERTEX
  8
0
 70
32
 10
504344.016368
 20
4589270.240951
 30
292.446901
  0
SEQEND
  0
POLYLINE
 66
1
 70
8
  8
0
 62
0
  6
Solid_Line
  0
VERTEX
  8
0
 70
32
 10
504361.120548
 20
4589248.829484
 30
292.291934
  0
VERTEX
  8
0
 70
32
 10
504359.345243
 20
4589233.761835
 30
292.280662
  0
VERTEX
  8
0
 70
32
 10
504321.856698
 20
4589238.457280
 30
292.192833
  0
VERTEX
  8
0
 70
32
 10
504323.594189
 20
4589253.401301
 30
292.151356
  0
VERTEX
  8
0
 70
32
 10
504361.120548
 20
4589248.829484
 30
292.291934
  0
SEQEND
  0
ENDSEC
  0
EOF
